ISO-10303-21;
HEADER;
FILE_DESCRIPTION (( 'STEP AP203' ),
    '1' );
FILE_NAME ('BK7-NPBSC-12.7-420-700.STEP',
    '2020-12-22T02:10:08',
    ( '' ),
    ( '' ),
    'SwSTEP 2.0',
    'SolidWorks 2020',
    '' );
FILE_SCHEMA (( 'CONFIG_CONTROL_DESIGN' ));
ENDSEC;

DATA;
#1 = LINE ( 'NONE', #88, #199 ) ;
#2 = DIRECTION ( 'NONE',  ( -0.7071067811865474617, -0.7071067811865474617, 0.000000000000000000 ) ) ;
#3 = LOCAL_TIME ( 10, 10, 8.000000000000000000, #180 ) ;
#4 = EDGE_CURVE ( 'NONE', #233, #253, #215, .T. ) ;
#5 = AXIS2_PLACEMENT_3D ( 'NONE', #211, #68, #138 ) ;
#6 = LINE ( 'NONE', #195, #254 ) ;
#7 = DIRECTION ( 'NONE',  ( -0.7071067811865474617, -0.7071067811865474617, 0.000000000000000000 ) ) ;
#8 = CARTESIAN_POINT ( 'NONE',  ( 6.349999999999998757, 6.349999999999998757, 6.349999999999999645 ) ) ;
#9 = PLANE ( 'NONE',  #311 ) ;
#10 = ADVANCED_FACE ( 'NONE', ( #25 ), #243, .T. ) ;
#11 = CARTESIAN_POINT ( 'NONE',  ( 0.000000000000000000, 0.000000000000000000, -6.349999999999999645 ) ) ;
#12 = VERTEX_POINT ( 'NONE', #15 ) ;
#13 = SECURITY_CLASSIFICATION_LEVEL ( 'unclassified' ) ;
#14 = PLANE ( 'NONE',  #28 ) ;
#15 = CARTESIAN_POINT ( 'NONE',  ( 6.349999999999996980, 6.349999999999996980, 6.349999999999999645 ) ) ;
#16 = CALENDAR_DATE ( 2020, 22, 12 ) ;
#17 = CARTESIAN_POINT ( 'NONE',  ( 6.349999999999998757, 6.349999999999998757, 6.349999999999999645 ) ) ;
#18 = ADVANCED_FACE ( 'NONE', ( #245 ), #321, .F. ) ;
#19 = EDGE_LOOP ( 'NONE', ( #78, #171, #153 ) ) ;
#20 = APPROVAL_DATE_TIME ( #44, #121 ) ;
#21 = PRODUCT_DEFINITION ( 'UNKNOWN', '', #54, #257 ) ;
#22 = VERTEX_POINT ( 'NONE', #221 ) ;
#23 = LINE ( 'NONE', #189, #161 ) ;
#24 = VECTOR ( 'NONE', #259, 1000.000000000000000 ) ;
#25 = FACE_OUTER_BOUND ( 'NONE', #184, .T. ) ;
#26 = CARTESIAN_POINT ( 'NONE',  ( 6.349999999999998757, 6.349999999999998757, -6.349999999999999645 ) ) ;
#27 = ADVANCED_FACE ( 'NONE', ( #187 ), #115, .F. ) ;
#28 = AXIS2_PLACEMENT_3D ( 'NONE', #114, #84, #104 ) ;
#29 = DIRECTION ( 'NONE',  ( -0.000000000000000000, -0.000000000000000000, -1.000000000000000000 ) ) ;
#30 = DIRECTION ( 'NONE',  ( -0.7071067811865475727, -0.7071067811865475727, 0.000000000000000000 ) ) ;
#31 = CARTESIAN_POINT ( 'NONE',  ( 6.349999999999996980, 6.349999999999996980, -6.349999999999999645 ) ) ;
#32 = EDGE_CURVE ( 'NONE', #85, #22, #315, .T. ) ;
#33 = LOCAL_TIME ( 10, 10, 8.000000000000000000, #126 ) ;
#34 = ORIENTED_EDGE ( 'NONE', *, *, #32, .F. ) ;
#35 = VECTOR ( 'NONE', #75, 999.9999999999998863 ) ;
#36 = COORDINATED_UNIVERSAL_TIME_OFFSET ( 8, 0, .AHEAD. ) ;
#37 = DIRECTION ( 'NONE',  ( -0.000000000000000000, -0.000000000000000000, -1.000000000000000000 ) ) ;
#38 = EDGE_LOOP ( 'NONE', ( #95, #292, #312, #163 ) ) ;
#39 = PRODUCT ( 'BK7-NPBSC-12.7-420-700', 'BK7-NPBSC-12.7-420-700', '', ( #82 ) ) ;
#40 = LINE ( 'NONE', #279, #35 ) ;
#41 = ORIENTED_EDGE ( 'NONE', *, *, #310, .F. ) ;
#42 = DATE_AND_TIME ( #66, #136 ) ;
#43 = ORIENTED_EDGE ( 'NONE', *, *, #194, .T. ) ;
#44 = DATE_AND_TIME ( #77, #33 ) ;
#45 = FACE_OUTER_BOUND ( 'NONE', #157, .T. ) ;
#46 = ORIENTED_EDGE ( 'NONE', *, *, #274, .F. ) ;
#47 = DATE_AND_TIME ( #16, #165 ) ;
#48 = ORIENTED_EDGE ( 'NONE', *, *, #285, .T. ) ;
#49 = APPLICATION_CONTEXT ( 'configuration controlled 3d designs of mechanical parts and assemblies' ) ;
#50 = CARTESIAN_POINT ( 'NONE',  ( 6.349999999999998757, 6.349999999999998757, 6.349999999999999645 ) ) ;
#51 = AXIS2_PLACEMENT_3D ( 'NONE', #244, #319, #268 ) ;
#52 = VECTOR ( 'NONE', #183, 1000.000000000000000 ) ;
#53 = LINE ( 'NONE', #102, #304 ) ;
#54 = PRODUCT_DEFINITION_FORMATION_WITH_SPECIFIED_SOURCE ( 'ANY', '', #39, .NOT_KNOWN. ) ;
#55 = LINE ( 'NONE', #141, #247 ) ;
#56 = CARTESIAN_POINT ( 'NONE',  ( 6.349999999999999645, -6.350000000000000533, -6.349999999999999645 ) ) ;
#57 = ORIENTED_EDGE ( 'NONE', *, *, #274, .T. ) ;
#58 = CALENDAR_DATE ( 2020, 22, 12 ) ;
#59 = DIRECTION ( 'NONE',  ( -0.000000000000000000, -0.000000000000000000, -1.000000000000000000 ) ) ;
#60 = EDGE_LOOP ( 'NONE', ( #205, #236, #107, #309 ) ) ;
#61 = DATE_AND_TIME ( #58, #3 ) ;
#62 = DIRECTION ( 'NONE',  ( -0.7071067811865475727, 0.7071067811865475727, 0.000000000000000000 ) ) ;
#63 = LINE ( 'NONE', #264, #87 ) ;
#64 = APPROVAL_STATUS ( 'not_yet_approved' ) ;
#65 = ORIENTED_EDGE ( 'NONE', *, *, #127, .T. ) ;
#66 = CALENDAR_DATE ( 2020, 22, 12 ) ;
#67 = CC_DESIGN_PERSON_AND_ORGANIZATION_ASSIGNMENT ( #209, #237, ( #21 ) ) ;
#68 = DIRECTION ( 'NONE',  ( 1.000000000000000000, -2.220446049250312588E-16, 0.000000000000000000 ) ) ;
#69 = DIRECTION ( 'NONE',  ( -2.220446049250312588E-16, 1.000000000000000000, 0.000000000000000000 ) ) ;
#70 = ORIENTED_EDGE ( 'NONE', *, *, #248, .F. ) ;
#71 = ORGANIZATION ( 'UNSPECIFIED', 'UNSPECIFIED', '' ) ;
#72 = VECTOR ( 'NONE', #29, 1000.000000000000000 ) ;
#73 = DIRECTION ( 'NONE',  ( -2.220446049250312588E-16, 1.000000000000000000, 0.000000000000000000 ) ) ;
#74 = EDGE_CURVE ( 'NONE', #91, #173, #63, .T. ) ;
#75 = DIRECTION ( 'NONE',  ( -0.7071067811865475727, -0.7071067811865475727, 0.000000000000000000 ) ) ;
#76 = ORIENTED_EDGE ( 'NONE', *, *, #285, .F. ) ;
#77 = CALENDAR_DATE ( 2020, 22, 12 ) ;
#78 = ORIENTED_EDGE ( 'NONE', *, *, #99, .T. ) ;
#79 = APPROVAL_ROLE ( '' ) ;
#80 = DIRECTION ( 'NONE',  ( 1.000000000000000000, -2.903408047666378392E-16, 0.000000000000000000 ) ) ;
#81 = CARTESIAN_POINT ( 'NONE',  ( -6.349999999999998757, -6.349999999999997868, 6.349999999999999645 ) ) ;
#82 = MECHANICAL_CONTEXT ( 'NONE', #185, 'mechanical' ) ;
#83 = APPROVAL_PERSON_ORGANIZATION ( #86, #146, #220 ) ;
#84 = DIRECTION ( 'NONE',  ( 0.7071067811865475727, -0.7071067811865475727, 0.000000000000000000 ) ) ;
#85 = VERTEX_POINT ( 'NONE', #270 ) ;
#86 = PERSON_AND_ORGANIZATION ( #242, #71 ) ;
#87 = VECTOR ( 'NONE', #2, 1000.000000000000114 ) ;
#88 = CARTESIAN_POINT ( 'NONE',  ( 6.349999999999996980, 6.349999999999996980, -6.349999999999999645 ) ) ;
#89 = DIRECTION ( 'NONE',  ( -2.220446049250312588E-16, 1.000000000000000000, 0.000000000000000000 ) ) ;
#90 = DATE_AND_TIME ( #154, #116 ) ;
#91 = VERTEX_POINT ( 'NONE', #26 ) ;
#92 = VECTOR ( 'NONE', #263, 1000.000000000000000 ) ;
#93 = DIRECTION ( 'NONE',  ( -2.220446049250312588E-16, 1.000000000000000000, 0.000000000000000000 ) ) ;
#94 = FACE_OUTER_BOUND ( 'NONE', #19, .T. ) ;
#95 = ORIENTED_EDGE ( 'NONE', *, *, #74, .T. ) ;
#96 = CC_DESIGN_DATE_AND_TIME_ASSIGNMENT ( #61, #261, ( #223 ) ) ;
#97 = AXIS2_PLACEMENT_3D ( 'NONE', #98, #201, #308 ) ;
#98 = CARTESIAN_POINT ( 'NONE',  ( 6.349999999999996980, 6.349999999999996980, 6.349999999999999645 ) ) ;
#99 = EDGE_CURVE ( 'NONE', #253, #172, #168, .T. ) ;
#100 = EDGE_LOOP ( 'NONE', ( #48, #296, #239, #43 ) ) ;
#101 = CARTESIAN_POINT ( 'NONE',  ( 0.000000000000000000, 0.000000000000000000, 0.000000000000000000 ) ) ;
#102 = CARTESIAN_POINT ( 'NONE',  ( -6.349999999999998757, -6.349999999999997868, -6.349999999999999645 ) ) ;
#103 = EDGE_LOOP ( 'NONE', ( #145, #76, #160 ) ) ;
#104 = DIRECTION ( 'NONE',  ( 0.7071067811865474617, 0.7071067811865474617, 0.000000000000000000 ) ) ;
#105 = DIRECTION ( 'NONE',  ( 6.829619984160658046E-17, -1.000000000000000000, 0.000000000000000000 ) ) ;
#106 = DIRECTION ( 'NONE',  ( 0.000000000000000000, 0.000000000000000000, 1.000000000000000000 ) ) ;
#107 = ORIENTED_EDGE ( 'NONE', *, *, #200, .T. ) ;
#108 = PERSON_AND_ORGANIZATION ( #242, #71 ) ;
#109 =( LENGTH_UNIT ( ) NAMED_UNIT ( * ) SI_UNIT ( .MILLI., .METRE. ) );
#110 = DIRECTION ( 'NONE',  ( 0.000000000000000000, 0.000000000000000000, 1.000000000000000000 ) ) ;
#111 = COORDINATED_UNIVERSAL_TIME_OFFSET ( 8, 0, .AHEAD. ) ;
#112 = ADVANCED_FACE ( 'NONE', ( #307 ), #120, .F. ) ;
#113 = AXIS2_PLACEMENT_3D ( 'NONE', #119, #303, #143 ) ;
#114 = CARTESIAN_POINT ( 'NONE',  ( 6.349999999999998757, 6.349999999999998757, 6.349999999999999645 ) ) ;
#115 = PLANE ( 'NONE',  #5 ) ;
#116 = LOCAL_TIME ( 10, 10, 8.000000000000000000, #111 ) ;
#117 = CC_DESIGN_PERSON_AND_ORGANIZATION_ASSIGNMENT ( #132, #177, ( #54 ) ) ;
#118 = FACE_OUTER_BOUND ( 'NONE', #203, .T. ) ;
#119 = CARTESIAN_POINT ( 'NONE',  ( 0.000000000000000000, 0.000000000000000000, 6.349999999999999645 ) ) ;
#120 = PLANE ( 'NONE',  #166 ) ;
#121 = APPROVAL ( #152, 'UNSPECIFIED' ) ;
#122 = ORIENTED_EDGE ( 'NONE', *, *, #192, .T. ) ;
#123 = DATE_TIME_ROLE ( 'creation_date' ) ;
#124 = PLANE ( 'NONE',  #113 ) ;
#125 = CC_DESIGN_APPROVAL ( #121, ( #54 ) ) ;
#126 = COORDINATED_UNIVERSAL_TIME_OFFSET ( 8, 0, .AHEAD. ) ;
#127 = EDGE_CURVE ( 'NONE', #190, #22, #40, .T. ) ;
#128 = CARTESIAN_POINT ( 'NONE',  ( 6.349999999999998757, 6.349999999999998757, 6.349999999999999645 ) ) ;
#129 = ORIENTED_EDGE ( 'NONE', *, *, #164, .T. ) ;
#130 = DIRECTION ( 'NONE',  ( 1.000000000000000000, 0.000000000000000000, 0.000000000000000000 ) ) ;
#131 = VECTOR ( 'NONE', #267, 1000.000000000000000 ) ;
#132 = PERSON_AND_ORGANIZATION ( #242, #71 ) ;
#133 = DIRECTION ( 'NONE',  ( 0.7071067811865475727, 0.7071067811865475727, 0.000000000000000000 ) ) ;
#134 = EDGE_LOOP ( 'NONE', ( #65, #272, #284 ) ) ;
#135 = SHAPE_DEFINITION_REPRESENTATION ( #191, #250 ) ;
#136 = LOCAL_TIME ( 10, 10, 8.000000000000000000, #149 ) ;
#137 = CARTESIAN_POINT ( 'NONE',  ( 6.349999999999998757, 6.349999999999998757, 6.349999999999999645 ) ) ;
#138 = DIRECTION ( 'NONE',  ( 0.000000000000000000, 0.000000000000000000, 1.000000000000000000 ) ) ;
#139 = CC_DESIGN_APPROVAL ( #206, ( #223 ) ) ;
#140 = EDGE_CURVE ( 'NONE', #172, #173, #148, .T. ) ;
#141 = CARTESIAN_POINT ( 'NONE',  ( 6.349999999999996980, 6.349999999999996980, 6.349999999999999645 ) ) ;
#142 = VECTOR ( 'NONE', #217, 1000.000000000000000 ) ;
#143 = DIRECTION ( 'NONE',  ( 1.000000000000000000, 0.000000000000000000, 0.000000000000000000 ) ) ;
#144 = CARTESIAN_POINT ( 'NONE',  ( 6.349999999999999645, -6.350000000000000533, 6.349999999999999645 ) ) ;
#145 = ORIENTED_EDGE ( 'NONE', *, *, #74, .F. ) ;
#146 = APPROVAL ( #64, 'UNSPECIFIED' ) ;
#147 = ORIENTED_EDGE ( 'NONE', *, *, #194, .F. ) ;
#148 = LINE ( 'NONE', #256, #219 ) ;
#149 = COORDINATED_UNIVERSAL_TIME_OFFSET ( 8, 0, .AHEAD. ) ;
#150 = CARTESIAN_POINT ( 'NONE',  ( -6.349999999999999645, -6.350000000000000533, -6.349999999999999645 ) ) ;
#151 = VERTEX_POINT ( 'NONE', #198 ) ;
#152 = APPROVAL_STATUS ( 'not_yet_approved' ) ;
#153 = ORIENTED_EDGE ( 'NONE', *, *, #4, .T. ) ;
#154 = CALENDAR_DATE ( 2020, 22, 12 ) ;
#155 = EDGE_CURVE ( 'NONE', #253, #91, #252, .T. ) ;
#156 = CARTESIAN_POINT ( 'NONE',  ( 6.349999999999998757, 6.349999999999998757, -6.349999999999999645 ) ) ;
#157 = EDGE_LOOP ( 'NONE', ( #179, #41, #176, #301 ) ) ;
#158 = APPROVAL_DATE_TIME ( #42, #206 ) ;
#159 = CC_DESIGN_PERSON_AND_ORGANIZATION_ASSIGNMENT ( #289, #240, ( #223 ) ) ;
#160 = ORIENTED_EDGE ( 'NONE', *, *, #164, .F. ) ;
#161 = VECTOR ( 'NONE', #69, 1000.000000000000000 ) ;
#162 = LINE ( 'NONE', #156, #280 ) ;
#163 = ORIENTED_EDGE ( 'NONE', *, *, #155, .T. ) ;
#164 = EDGE_CURVE ( 'NONE', #173, #208, #6, .T. ) ;
#165 = LOCAL_TIME ( 10, 10, 8.000000000000000000, #36 ) ;
#166 = AXIS2_PLACEMENT_3D ( 'NONE', #11, #277, #93 ) ;
#167 = ADVANCED_FACE ( 'NONE', ( #94 ), #124, .T. ) ;
#168 = LINE ( 'NONE', #8, #275 ) ;
#169 = FACE_OUTER_BOUND ( 'NONE', #60, .T. ) ;
#170 = CARTESIAN_POINT ( 'NONE',  ( -6.349999999999999645, -6.350000000000000533, 6.349999999999999645 ) ) ;
#171 = ORIENTED_EDGE ( 'NONE', *, *, #248, .T. ) ;
#172 = VERTEX_POINT ( 'NONE', #170 ) ;
#173 = VERTEX_POINT ( 'NONE', #150 ) ;
#174 = EDGE_CURVE ( 'NONE', #22, #151, #53, .T. ) ;
#175 = CARTESIAN_POINT ( 'NONE',  ( 6.349999999999999645, -6.350000000000000533, 6.349999999999999645 ) ) ;
#176 = ORIENTED_EDGE ( 'NONE', *, *, #222, .T. ) ;
#177 = PERSON_AND_ORGANIZATION_ROLE ( 'design_supplier' ) ;
#178 = CARTESIAN_POINT ( 'NONE',  ( -6.350000000000002309, 6.350000000000001421, 6.349999999999999645 ) ) ;
#179 = ORIENTED_EDGE ( 'NONE', *, *, #127, .F. ) ;
#180 = COORDINATED_UNIVERSAL_TIME_OFFSET ( 8, 0, .AHEAD. ) ;
#181 = PLANE ( 'NONE',  #229 ) ;
#182 = VECTOR ( 'NONE', #30, 999.9999999999998863 ) ;
#183 = DIRECTION ( 'NONE',  ( 0.000000000000000000, 0.000000000000000000, -1.000000000000000000 ) ) ;
#184 = EDGE_LOOP ( 'NONE', ( #202, #288, #46 ) ) ;
#185 = APPLICATION_CONTEXT ( 'configuration controlled 3d designs of mechanical parts and assemblies' ) ;
#186 = APPLICATION_PROTOCOL_DEFINITION ( 'international standard', 'config_control_design', 1994, #49 ) ;
#187 = FACE_OUTER_BOUND ( 'NONE', #314, .T. ) ;
#188 = PERSON_AND_ORGANIZATION_ROLE ( 'creator' ) ;
#189 = CARTESIAN_POINT ( 'NONE',  ( -6.349999999999998757, -6.349999999999997868, 6.349999999999999645 ) ) ;
#190 = VERTEX_POINT ( 'NONE', #31 ) ;
#191 = PRODUCT_DEFINITION_SHAPE ( 'NONE', 'NONE',  #21 ) ;
#192 = EDGE_CURVE ( 'NONE', #218, #151, #232, .T. ) ;
#193 = CLOSED_SHELL ( 'NONE', ( #287, #224, #18, #167, #262 ) ) ;
#194 = EDGE_CURVE ( 'NONE', #233, #208, #281, .T. ) ;
#195 = CARTESIAN_POINT ( 'NONE',  ( -6.349999999999999645, -6.350000000000000533, -6.349999999999999645 ) ) ;
#196 = VECTOR ( 'NONE', #59, 1000.000000000000000 ) ;
#197 = DIRECTION ( 'NONE',  ( 0.000000000000000000, 1.000000000000000000, 0.000000000000000000 ) ) ;
#198 = CARTESIAN_POINT ( 'NONE',  ( -6.350000000000002309, 6.350000000000001421, -6.349999999999999645 ) ) ;
#199 = VECTOR ( 'NONE', #80, 1000.000000000000000 ) ;
#200 = EDGE_CURVE ( 'NONE', #218, #12, #55, .T. ) ;
#201 = DIRECTION ( 'NONE',  ( -2.903408047666378392E-16, -1.000000000000000000, 0.000000000000000000 ) ) ;
#202 = ORIENTED_EDGE ( 'NONE', *, *, #222, .F. ) ;
#203 = EDGE_LOOP ( 'NONE', ( #129, #147, #70, #260 ) ) ;
#204 = AXIS2_PLACEMENT_3D ( 'NONE', #101, #106, #130 ) ;
#205 = ORIENTED_EDGE ( 'NONE', *, *, #269, .F. ) ;
#206 = APPROVAL ( #318, 'UNSPECIFIED' ) ;
#207 = DIRECTION ( 'NONE',  ( 1.000000000000000000, 0.000000000000000000, 0.000000000000000000 ) ) ;
#208 = VERTEX_POINT ( 'NONE', #56 ) ;
#209 = PERSON_AND_ORGANIZATION ( #242, #71 ) ;
#210 = LINE ( 'NONE', #293, #142 ) ;
#211 = CARTESIAN_POINT ( 'NONE',  ( -6.349999999999998757, -6.349999999999997868, 6.349999999999999645 ) ) ;
#212 = APPLICATION_PROTOCOL_DEFINITION ( 'international standard', 'config_control_design', 1994, #185 ) ;
#213 = CARTESIAN_POINT ( 'NONE',  ( 6.349999999999996980, 6.349999999999996980, 6.349999999999999645 ) ) ;
#214 = APPROVAL_PERSON_ORGANIZATION ( #108, #206, #297 ) ;
#215 = LINE ( 'NONE', #137, #131 ) ;
#216 = PERSON_AND_ORGANIZATION ( #242, #71 ) ;
#217 = DIRECTION ( 'NONE',  ( 1.000000000000000000, 0.000000000000000000, 0.000000000000000000 ) ) ;
#218 = VERTEX_POINT ( 'NONE', #178 ) ;
#219 = VECTOR ( 'NONE', #37, 1000.000000000000000 ) ;
#220 = APPROVAL_ROLE ( '' ) ;
#221 = CARTESIAN_POINT ( 'NONE',  ( -6.349999999999998757, -6.349999999999997868, -6.349999999999999645 ) ) ;
#222 = EDGE_CURVE ( 'NONE', #12, #85, #290, .T. ) ;
#223 = SECURITY_CLASSIFICATION ( '', '', #13 ) ;
#224 = ADVANCED_FACE ( 'NONE', ( #118 ), #9, .F. ) ;
#225 = CC_DESIGN_PERSON_AND_ORGANIZATION_ASSIGNMENT ( #216, #188, ( #54 ) ) ;
#226 =( GEOMETRIC_REPRESENTATION_CONTEXT ( 3 ) GLOBAL_UNCERTAINTY_ASSIGNED_CONTEXT ( ( #246 ) ) GLOBAL_UNIT_ASSIGNED_CONTEXT ( ( #109, #298, #238 ) ) REPRESENTATION_CONTEXT ( 'NONE', 'WORKASPACE' ) );
#227 = CARTESIAN_POINT ( 'NONE',  ( -6.349999999999999645, -6.350000000000000533, 6.349999999999999645 ) ) ;
#228 = DIRECTION ( 'NONE',  ( 1.000000000000000000, -2.903408047666378392E-16, 0.000000000000000000 ) ) ;
#229 = AXIS2_PLACEMENT_3D ( 'NONE', #213, #62, #133 ) ;
#230 = ADVANCED_FACE ( 'NONE', ( #169 ), #251, .F. ) ;
#231 = APPROVAL_DATE_TIME ( #90, #146 ) ;
#232 = LINE ( 'NONE', #313, #24 ) ;
#233 = VERTEX_POINT ( 'NONE', #175 ) ;
#234 = FACE_OUTER_BOUND ( 'NONE', #38, .T. ) ;
#235 = AXIS2_PLACEMENT_3D ( 'NONE', #317, #110, #89 ) ;
#236 = ORIENTED_EDGE ( 'NONE', *, *, #192, .F. ) ;
#237 = PERSON_AND_ORGANIZATION_ROLE ( 'creator' ) ;
#238 =( NAMED_UNIT ( * ) SI_UNIT ( $, .STERADIAN. ) SOLID_ANGLE_UNIT ( ) );
#239 = ORIENTED_EDGE ( 'NONE', *, *, #4, .F. ) ;
#240 = PERSON_AND_ORGANIZATION_ROLE ( 'classification_officer' ) ;
#241 = PLANE ( 'NONE',  #51 ) ;
#242 = PERSON ( 'UNSPECIFIED', 'UNSPECIFIED', 'UNSPECIFIED', ('UNSPECIFIED'), ('UNSPECIFIED'), ('UNSPECIFIED') ) ;
#243 = PLANE ( 'NONE',  #235 ) ;
#244 = CARTESIAN_POINT ( 'NONE',  ( 0.000000000000000000, 0.000000000000000000, -6.349999999999999645 ) ) ;
#245 = FACE_OUTER_BOUND ( 'NONE', #100, .T. ) ;
#246 = UNCERTAINTY_MEASURE_WITH_UNIT (LENGTH_MEASURE( 1.000000000000000082E-05 ), #109, 'distance_accuracy_value', 'NONE');
#247 = VECTOR ( 'NONE', #228, 1000.000000000000000 ) ;
#248 = EDGE_CURVE ( 'NONE', #172, #233, #210, .T. ) ;
#249 = CARTESIAN_POINT ( 'NONE',  ( 6.349999999999996980, 6.349999999999996980, 6.349999999999999645 ) ) ;
#250 = ADVANCED_BREP_SHAPE_REPRESENTATION ( 'BK7-NPBSC-12.7-420-700', ( #283, #278, #204 ), #226 ) ;
#251 = PLANE ( 'NONE',  #97 ) ;
#252 = LINE ( 'NONE', #128, #72 ) ;
#253 = VERTEX_POINT ( 'NONE', #17 ) ;
#254 = VECTOR ( 'NONE', #207, 1000.000000000000000 ) ;
#255 = PERSON_AND_ORGANIZATION_ROLE ( 'design_owner' ) ;
#256 = CARTESIAN_POINT ( 'NONE',  ( -6.349999999999999645, -6.350000000000000533, 6.349999999999999645 ) ) ;
#257 = DESIGN_CONTEXT ( 'detailed design', #49, 'design' ) ;
#258 = CC_DESIGN_SECURITY_CLASSIFICATION ( #223, ( #54 ) ) ;
#259 = DIRECTION ( 'NONE',  ( 0.000000000000000000, 0.000000000000000000, -1.000000000000000000 ) ) ;
#260 = ORIENTED_EDGE ( 'NONE', *, *, #140, .T. ) ;
#261 = DATE_TIME_ROLE ( 'classification_date' ) ;
#262 = ADVANCED_FACE ( 'NONE', ( #266 ), #241, .F. ) ;
#263 = DIRECTION ( 'NONE',  ( 0.000000000000000000, 0.000000000000000000, -1.000000000000000000 ) ) ;
#264 = CARTESIAN_POINT ( 'NONE',  ( 6.349999999999998757, 6.349999999999998757, -6.349999999999999645 ) ) ;
#265 = PERSON_AND_ORGANIZATION ( #242, #71 ) ;
#266 = FACE_OUTER_BOUND ( 'NONE', #103, .T. ) ;
#267 = DIRECTION ( 'NONE',  ( -6.829619984160658046E-17, 1.000000000000000000, -0.000000000000000000 ) ) ;
#268 = DIRECTION ( 'NONE',  ( 1.000000000000000000, 0.000000000000000000, 0.000000000000000000 ) ) ;
#269 = EDGE_CURVE ( 'NONE', #151, #190, #1, .T. ) ;
#270 = CARTESIAN_POINT ( 'NONE',  ( -6.349999999999998757, -6.349999999999997868, 6.349999999999999645 ) ) ;
#271 = CC_DESIGN_PERSON_AND_ORGANIZATION_ASSIGNMENT ( #294, #255, ( #39 ) ) ;
#272 = ORIENTED_EDGE ( 'NONE', *, *, #174, .T. ) ;
#273 = CC_DESIGN_APPROVAL ( #146, ( #21 ) ) ;
#274 = EDGE_CURVE ( 'NONE', #85, #218, #23, .T. ) ;
#275 = VECTOR ( 'NONE', #7, 1000.000000000000114 ) ;
#276 = CC_DESIGN_DATE_AND_TIME_ASSIGNMENT ( #47, #123, ( #21 ) ) ;
#277 = DIRECTION ( 'NONE',  ( 0.000000000000000000, 0.000000000000000000, 1.000000000000000000 ) ) ;
#278 = MANIFOLD_SOLID_BREP ( '¾µÏ', #320 ) ;
#279 = CARTESIAN_POINT ( 'NONE',  ( 6.349999999999996980, 6.349999999999996980, -6.349999999999999645 ) ) ;
#280 = VECTOR ( 'NONE', #300, 1000.000000000000000 ) ;
#281 = LINE ( 'NONE', #144, #196 ) ;
#282 = AXIS2_PLACEMENT_3D ( 'NONE', #50, #299, #105 ) ;
#283 = MANIFOLD_SOLID_BREP ( 'Í¹Ì¨-À', #193 ) ;
#284 = ORIENTED_EDGE ( 'NONE', *, *, #269, .T. ) ;
#285 = EDGE_CURVE ( 'NONE', #208, #91, #162, .T. ) ;
#286 = ORIENTED_EDGE ( 'NONE', *, *, #174, .F. ) ;
#287 = ADVANCED_FACE ( 'NONE', ( #234 ), #14, .F. ) ;
#288 = ORIENTED_EDGE ( 'NONE', *, *, #200, .F. ) ;
#289 = PERSON_AND_ORGANIZATION ( #242, #71 ) ;
#290 = LINE ( 'NONE', #249, #182 ) ;
#291 = ADVANCED_FACE ( 'NONE', ( #45 ), #181, .F. ) ;
#292 = ORIENTED_EDGE ( 'NONE', *, *, #140, .F. ) ;
#293 = CARTESIAN_POINT ( 'NONE',  ( -6.349999999999999645, -6.350000000000000533, 6.349999999999999645 ) ) ;
#294 = PERSON_AND_ORGANIZATION ( #242, #71 ) ;
#295 = LINE ( 'NONE', #316, #92 ) ;
#296 = ORIENTED_EDGE ( 'NONE', *, *, #155, .F. ) ;
#297 = APPROVAL_ROLE ( '' ) ;
#298 =( NAMED_UNIT ( * ) PLANE_ANGLE_UNIT ( ) SI_UNIT ( $, .RADIAN. ) );
#299 = DIRECTION ( 'NONE',  ( -1.000000000000000000, -6.829619984160658046E-17, 0.000000000000000000 ) ) ;
#300 = DIRECTION ( 'NONE',  ( -6.829619984160658046E-17, 1.000000000000000000, -0.000000000000000000 ) ) ;
#301 = ORIENTED_EDGE ( 'NONE', *, *, #32, .T. ) ;
#302 = APPROVAL_PERSON_ORGANIZATION ( #265, #121, #79 ) ;
#303 = DIRECTION ( 'NONE',  ( -0.000000000000000000, 0.000000000000000000, 1.000000000000000000 ) ) ;
#304 = VECTOR ( 'NONE', #73, 1000.000000000000000 ) ;
#305 = DIRECTION ( 'NONE',  ( 0.000000000000000000, -0.000000000000000000, 1.000000000000000000 ) ) ;
#306 = PRODUCT_RELATED_PRODUCT_CATEGORY ( 'detail', '', ( #39 ) ) ;
#307 = FACE_OUTER_BOUND ( 'NONE', #134, .T. ) ;
#308 = DIRECTION ( 'NONE',  ( -1.000000000000000000, 2.903408047666378392E-16, 0.000000000000000000 ) ) ;
#309 = ORIENTED_EDGE ( 'NONE', *, *, #310, .T. ) ;
#310 = EDGE_CURVE ( 'NONE', #12, #190, #295, .T. ) ;
#311 = AXIS2_PLACEMENT_3D ( 'NONE', #227, #197, #305 ) ;
#312 = ORIENTED_EDGE ( 'NONE', *, *, #99, .F. ) ;
#313 = CARTESIAN_POINT ( 'NONE',  ( -6.350000000000002309, 6.350000000000001421, 6.349999999999999645 ) ) ;
#314 = EDGE_LOOP ( 'NONE', ( #286, #34, #57, #122 ) ) ;
#315 = LINE ( 'NONE', #81, #52 ) ;
#316 = CARTESIAN_POINT ( 'NONE',  ( 6.349999999999996980, 6.349999999999996980, 6.349999999999999645 ) ) ;
#317 = CARTESIAN_POINT ( 'NONE',  ( 0.000000000000000000, 0.000000000000000000, 6.349999999999999645 ) ) ;
#318 = APPROVAL_STATUS ( 'not_yet_approved' ) ;
#319 = DIRECTION ( 'NONE',  ( -0.000000000000000000, 0.000000000000000000, 1.000000000000000000 ) ) ;
#320 = CLOSED_SHELL ( 'NONE', ( #291, #27, #230, #10, #112 ) ) ;
#321 = PLANE ( 'NONE',  #282 ) ;
ENDSEC;
END-ISO-10303-21;
